Říjen 2010

Úvaha o upírech-sloh(majne)

23. října 2010 v 17:25 | ♥♥♥ThOMÍÍÍ♥♥♥ |  majne žblepty
Úvaha o upírech
Je možné, že legendy o nadpřirozených bytostech jako jsou vlkodlaci,upíři a draci by vůbec nemusely být jen kreslené noční můry,že možná legendy odrážejí existenci skutečných,i když vzácných výstřelků vývoje.
Snad každý na tomto světě, ví kdo je to upír. Akorát každý si pod tímto názvem představí něco jiného. Někdo osobu s dlouhýma špičákama a že zabíjí lidi.Další krvežíznivé obludy a jiný člověka zasvěceného upíří krví,který nezabijí lidi,jen si vezme tolik krve,kolik potřebuje,aby přežil.Který stárne 10x pomaleji,nedají se vyfotografovat.
Ještě nikdo ale nedokázal na 100% že upíři žily,žijí a budou žít.Ale jedno je jediné,jestli si někdo myslí,že upíři nemůžou jíst česnek,nebo že se nevidí v zrcadle a že ho můžete zabít jen kůlem do srdce,tak je na velkém omylu.Upír může jíst česnek a vidí se v zrcadle a zabít ho může jako normálního člověka.
Nabízí se otázka-existovali upíři či nikoli?Poj´d mě o tom tedy uvažovat.Archeology o jejich existenci přesvědčili kosterní nálezy.Někdo by řek "co je na lidských kostrách tak zajímavého"Jenže,proč by místní pohřbívali mrtvé několik kilometrů od hřbitova?Proč jim alespoň neudělali náhrobek?Jak to že byly usmrceny typickým protiwampiristickým
způsobem?Jak je mohli nenávidět?Tak hodně,že je zabili zabodnutím kůlu do srdce.Po smrti jim ulámali ruce a nohy a zahrabali je daleko od těla,a pohřbili hlavou dolů.Ale proč?Nejspíš proto,aby se nemohli hýbat,dýchat,ožít,ohrožovat lidé.Bali se jich nejspíš proto,že k tomu měli pádný důvod.
No a co si mylní o upírech já?Že bych byla třeba milovnice upírů,nebo naopak,tak to ne.Ale o upírech vím tohle(nebo si to alespoň myslím).Nejsou zlý,od lidí se drží dál,a právě proto možná nevíme že existují.ale upír muže být klidně i váš soused.Na člověku nepoznáte jestli je to upír.Pokud se o ně nezajímáte.
Ale podle čeho teda poznáte upíra?Většinou jsou vyšší postavy.Bledý,po celém těle mají jizvy s bojí.nesmí být na sluníčku,jinak je popálí.¨Dá se o nich říci,že to jsou noční tvorové.Nedají se vyfotografovat,protože jejich atomy se pohybují rychleji než u člověka.
Jaké jsou jejich tradice?Upíři si na tradicích velmi potrpí.Nikde je nezapisují,protože neumí psát ani číst.Přenášejí je s generace na gerenaci.Upíři mají vyvinutější
smyslové orgány.Slyší dvakrát více než člověk i lépe vidí,už jen proto,že žijí v noci.
Upíři stárnou 10x pomaleji,za to co vy zestárnete a 10 let,upír jen o jeden.Proto se taky dožívají stovky let.Upíří se dokážou také rychleji pohybovat,tzv. Míhání.dokážou vydechnout plyn s úst,který člověka uspí.
Nepoužívají zbraně na dálku,jako je luk,pistole atd.Používají jen dýky,nože a takový.Upíří nemohou mít děti,nemají rodiny,jsou osamělí.
Ale proč se tedy mluví o upírech jako krvežízních tvorech?Protože nejsou jen upíří,ale jsou i vampýři.Kdysi dávno asi před 500 mil. Lety byl jen jeden národ,upíří.Ale jedné polovině se nelíbilo,že když se chtějí nakrmit,tak svou obě´t nezabiji.Tak se odtrhli od upírů,a začali si říkat vampýři.To ale nikdo neví,každý si myslí,že zabíjejí upíři,ale oni to jsou vampýři.
Z celkového pohledu na věc kdy považujeme existenci upírů za nereálné,nic méně skutečnost(pokud nějaká)se dle našeho názoru silně rozchází s představami většiny lidí.

Vampire's Assistant-sloh(majne)

23. října 2010 v 16:24 | ♥♥♥ThOMÍÍÍ♥♥♥ |  majne žblepty
Vampire's assistant

Než jsem viděla tento film,přečetla jsem si o tom knihu Darren Shan.Kniha mě moc nadchla,ale když to udělali ve s filmované podobě,nebyla jsem moc nadšená.Přeci jen musím to pochválit,udělali ti sice trochu jinak,než to je v knize,ale je to velmi dobře s filmovaný.
"Jsem
Darren Shan,můj život je zcela normální,a mám ho moc rád.Nemůžu si na nic stěžovat".Řekl hned na začátku filmu
Darren obdivoval pavouky,zajímal se o ně,a dokonce je i sbíral .Jeho nejlepší kamarád Steve se zase zajmal o upíry.Steve Leonard se chtěl stát upírem,nikdo to nevěděl,ani dokonce Darren ne!
Když šli jednou spolu ze školy,projelo kolem nich
auto,na kterém bylo místo poznávací značky napsáno "O.Sudd" a vyletěl s toho auta lístek na nedělní představení zrůd,tzv. "Circo Moustruoso". ´
Hned tu neděli se vydali na cestu ke starému kinu,kde se to představení mělo konat.Uvnitř už sedělo mnoho lidí.Jen co se usadili představení začalo.Probíhalo to hladce,moc se to všem líbilo.Na poslední scénu přišel Larten Hroozley s pavoučiví Madame Oktou.Steve,jelikož se staral o upíry,hned poznal že je to Von Hurstnon,tzv. upír,četl o něm kdysi v knize.Darrena zase více zaujala ta pavoučice.
Hned po představení se Darren vydal to Hroozleyho komory,našel tam Oktu,ale zaslechl nějaké hlasy,tak se schoval.Přišel tam Larten ještě s jiným upírem s Gavnerem Zurčem.Pochvíly přišel Steve,a žádal Pana Hroozleyho,aby zněj udělal upíra.Larten odmítnul,jelikož měl špatnou krev,a upíři nejsou zlý!Steve přísahal že si ho jednou najde a zabije ho.
Druhý den do vzal Darren Pavoučici do školy a Steve si toho všimnul,hned žádal aby mu jí ukázal.A pak se rozkřiknul,jak si to představuje,že okrast upíra.Ale Darren se nedal,a řekl mu,že ví se chce stát upírem.Najednou Stevovi spadla klícka s Oktou a utekla.zŹačali jí oba dva chytat,a najednou začala lézt po Stevovi a kousla ho.
Hned ho odvezli do nemocnice,ale tuhle pavoučci nikdo nezná,a je smrtelně jedovatá.Nevěděli jak ho zachránit.
Darren se vydal za Panem Hroozleym,požádal ho o protijed,Larten kývl,že mu ho dá,a Steva vyléčí. ale jen na dohodu.A ta zněla, "staneš se mým pomocníkem,udělám s tebe poloupíra.Darrena to rozhodila,on se nechtěl stát upírem,to chtěl Steve.Když se stane upírem,musí opustit rodinu,přátelé,prostě všechny.Ale když se nestane upírem,Steve zemře.Nakonec přikývnul.Larten z něj udělal poloupíra.A hned letěli zachránit Steve.
Darren ale odmítnul opustit rodinu a všechny své přátelé.Hroozley mu sice vysvětloval že to nejde,ala Darren si postavil hlavu.A najednou Darren zjistil že to opravdu nejde.Začal slábnout,jelikož odmítal pít krev.Nakonec ho Larten zabil.Ale ne uplně.to jen aby si každej myslel že je mrtev.
O půl noci ho vykopal Larten s hrobu,a zašli zpátky do cirkusu.Tam se ubytovali na malou chvíly,nemohli tam zůstat navždy.Po Darrenovi šli vampýři(to je druhá polovina upírů,ale s jedným rozdílem,oni zabíjejí lidé,což upíři ne!a jsou to nepřátelské rody)to byl taky jeden s důvodů,proč ho Larten zasvětil upírskou krví.A taky ho chránil před Osmondem Sudddem.
Jednou vampýři vtrhli do cirkusu a vzkázali Darrenovi a´t se vrátí domů.Přišel hned domů a tam ležel vzkaz, "dnes večer v kině".Neváhal a hned se tam vydal.Byl tam Mourlough(to je jeden s Vampírů) a sním i Steve(který se stal vampírem).Pochvíli přišel Larten Hroozley.Začali se bít.(upíři ani vampýři nepoužívají zbraně na dálku,jen nože,dýky a nechty atd.)skončilo že Larten zabil Mourlougha.
Darren se Steve se spolu nesmířili,jelikož si Steve myslí,že Darren mu sebral místo upíra.Protože se chtěl stát on upírem.Darren mu sice vysvětloval že to udělal,jen aby ho zachránil,ale Steve mu prostě neveří.
Darrena to moc mrzí,že přišel o rodinu a o svého nejlepšího kamaráda.Ale už si na svůj nový život zvyká.Ze začatku neměl rád Pana Hroozleyho,protože to on ho zakrvil upírskou krví,to kvůli němu se vzdal svého lidského života.Larten ho učil jak žít,jako upír,učil ho bojovat,vyprávěj mu historii upírů,učil ho jejich zvyků a seznamoval s dalšíma upíry.Na konec si Lartena oblíbil a bral ho jako za svého otce.
Sice občas zatoužil po rodině,Ale pak si uvědomil,že to už stejně nejde vrátit zpět,a navíc si žije docela dobře.Má zase nový přátelé,rodinu taky.

Bill Kaulitz for Saturn (video)

22. října 2010 v 19:40 | ♥♥♥ThOMÍÍÍ♥♥♥
Alice: Kdo jsi?
Bill: Já jsem Bill Kaulitz.
Mimozemšťaň: Tohle může říct každý..
Bill: Tak se podívej...
Alice: To umím taky...
Bill: Všechno je prostě otázka techniky.



In you shadow can shine

21. října 2010 v 19:03 | ♥♥♥ThOMÍÍÍ♥♥♥
Intro:
e|--------------|--------------|--------------|--------------|
b|--------------|--------------|--------------|--------------|
g|------3-----3-|------3-----3-|------3-----3-|------3-----3-|
d|------3-----3-|------3-----3-|------3-----3-|------3-----3-|
a|--------------|--------------|--2-2---2-2---|--2-2---2-2---|
d|--5-5---5-5---|--1-1---1-1---|--------------|--------------| x2

Verse 1:
e|--------------|--------------|--------------|--------------|
b|--------------|--------------|--------------|--------------|
g|------3-----3-|------3-----3-|------3-----3-|------3-----3-|
d|------3-----3-|------3-----3-|------3-----3-|------3-----3-|
a|--------------|--------------|--2-2---2-2---|--2-2---2-2---|
d|--5-5---5-5---|--1-1---1-1---|--------------|--------------| x4
I Hate my life
I can't… out of...

e|--------------|--------------|--------------|--------------|
b|--------------|--------------|--------------|--------------|
g|------3-----3-|------3-----3-|------3-----3-|------3-----3-|
d|------3-----3-|------3-----3-|------3-----3-|------3-----3-|
a|--------------|--------------|--------------|--5-5---5-5---|
d|--1-1---1-1---|--3-3---3-3---|--5-5---5-5---|--------------|
touch out of time just get lost without a
sign as long as

e|--------------|--------------|
b|--------------|--------------|
g|------3-----3-|------3-----3-|
d|------3-----3-|------3-----3-|
a|--------------|--------------|
d|--1-1---1-1---|--3-3---3-3---|
you'll stay by my side in your shadow I can

e|--------------|--------------|--------------|--------------|
b|--------------|--------------|--------------|--------------|
g|------3-----3-|------3-----3-|------3-----3-|------3-----3-|
d|------3-----3-|------3-----3-|------3-----3-|------3-----3-|
a|--------------|--------------|--------------|--------------|
d|--5-5---5-5---|--1-1---1-1---|--3-3---3-3---|--0-0---0-0---|
shine… in your shadow i can shine
in your shadow

e|--------------|--------------|
b|--------------|--------------|
g|------3-----3-|------3-----3-|
d|------3-----3-|------3-----3-|
a|--------------|--------------|
d|--5-5---5-5---|--1-1---1-1---|
i can shine shine...

Verse 2:
e|--------------|--------------|--------------|--------------|
b|--------------|--------------|--------------|--------------|
g|------3-----3-|------3-----3-|------3-----3-|------3-----3-|
d|------3-----3-|------3-----3-|------3-----3-|------3-----3-|
a|--------------|--------------|--2-2---2-2---|--2-2---2-2---|
d|--5-5---5-5---|--1-1---1-1---|--------------|--------------| x2
you see my soul…

e|--------------|--------------|--------------|--------------|
b|--------------|--------------|--------------|--------------|
g|------3-----3-|------3-----3-|------3-----3-|------3-----3-|
d|------3-----3-|------3-----3-|------3-----3-|------3-----3-|
a|--------------|--------------|--------------|--5-5---5-5---|
d|--1-1---1-1---|--3-3---3-3---|--5-5---5-5---|--------------|
into the dark..

e|--------------|--------------|
b|--------------|--------------|
g|------3-----3-|------3-----3-|
d|------3-----3-|------3-----3-|
a|--------------|--------------|
d|--1-1---1-1---|--3-3---3-3---|
you're the sun and I'm the moon in your shadow i can


e|--------------|--------------|--------------|--------------|
b|--------------|--------------|--------------|--------------|
g|------3-----3-|------3-----3-|------3-----3-|------3-----3-|
d|------3-----3-|------3-----3-|------3-----3-|------3-----3-|
a|--------------|--------------|--------------|--------------|
d|--5-5---5-5---|--1-1---1-1---|--3-3---3-3---|--0-0---0-0---|
shine… in your shadow i can shine
in your shadow

e|--------------|--------------|--------------|--------------|---------
b|--------------|--------------|--------------|--------------|-----------
g|------3-----3-|------3-----3-|--------------|--------------|--------------
d|------3-----3-|------3-----3-|------3-----3-|------3-----3-|------3--------
a|--------------|--------------|------3-----3-|------3-----3-|------3------
d|--5-5---5-5---|--1-1---1-1---|--3-3---3-3---|--3-3---3-3---|--3-3-----
i can shine shine....


play till the end
e|---------------|---------------|---------------|---------------|
b|---------------|---------------|---------------|---------------|
g|---------------|---------------|---------------|---------------|
d|6-6-6-6-6-6-6-6|2-2-2-2-2-2-2-2|4-4-4-4-4-4-4-4|4-4-4-4-4-4-4-4|
a|4-4-4-4-4-4-4-4|0-0-0-0-0-0-0-0|2-2-2-2-2-2-2-2|2-2-2-2-2-2-2-2|
d|---------------|---------------|---------------|---------------|

Instart karma

21. října 2010 v 19:02 | ♥♥♥ThOMÍÍÍ♥♥♥
F sharp, G sharp

1st verse
A F sharp
Instant karma's gonna get you
A F sharp
Gonna knock you right on the head
A F sharp
You better get yourself together
F G A
Pretty soon you gonna be dead
D B
What in the world you're thinking of
D B
Laughing in the face of love?
C A
What on earth are you trying to do?
D E
It's up to you - yeah you


2nd verse

A F sharp
Instant karma's gonna get you
A F sharp
Gonna look you right in the face
A F sharp
Better get yourself together darling
F G A
Join the human race
D B
How in the world you gonna see
D B
Laughing at fools like me?
C A
Who in the hell do you think you are?
D E
A superstar? Well, right you are

chorus

G Bm Em
Well we all shine on
G Bm Em
Like the moon and the sun and the stars
G Bm Em
Well we all shine on
D E
Everyone come on

3rd verse

A F sharp
Instant karma's gonna get you
A F sharp
Gonna knock you off your feet
A F sharp
Better recognize your brothers
F G A
Everyone you meet
D B
Why in the world are we here?
D B
Surely not to live in pain and fear
D B
Why in earth are you there
C A
When you're everywhere?
D E
Come and get your share

chorus

G Bm Em
Well we all shine on
G Bm Em
Like the moon and the sun and the stars
G Bm Em
Well we all shine on
D E
Come on and on and on on on

chorus

G Bm Em
Well we all shine on
G Bm Em
Like the moon and the sun and the stars
G Bm Em
we all shine on
D E
On and on and on on on

G Bm Em
well we all shine on
G Bm Em
Like the moon and the sun and the stars
G Bm Em
well we all shine on
G Bm Em
Like the moon and the sun and the stars
G Bm Em
Well we all shine on
G Bm Em
Like the moon and the sun and the stars
G Bm Em
well we all shine on
G Bm Em
Like the moon and the sun and the stars

In die nacht

21. října 2010 v 19:01 | ♥♥♥ThOMÍÍÍ♥♥♥
 |Guitar 1
E|---------------------------------|---------------------------------|
H|-------4-------4-------4-------4-|-------3-4-3-----------3-------3-|
G|-----5---5---5-------5---5---5---|-------------5-4-----4---4---4---|
D|---5-------5-------5-------5-----|-----5-------------4-------4-----|
A|-3---------------3---------------|-----------------2---------------|
E|---------------------------------|-4-3-----------------------------|

|Guitar 2
E|---|---------------------------------|------------------------------------|
H|---|---------------------------------|------------------------------------|
G|-7>|-8-8-8-8>7-7-7-7>8-8-8-8>7-7-7-8>|-10-10-10-10>8-8-8-7>5-5-5-5>4-4-47>|
D|---|---------------------------------|------------------------------------|
A|---|---------------------------------|------------------------------------|
E|---|---------------------------------|------------------------------------|

|Guitar 3
E|-------------|-------------------------------------|
H|-------------|---------------9-8---9-8----9-8-9----|
G|-------------|------8---10-------------------------|
D|-------------|-10----------------------------------|
A|-------------|-------------------------------------|
E|-------------|-------------------------------------|

|
E|-11---10-----|-------------------------------------|
H|-------------|---------------9-8---9-8----9-8-9----|
G|-------------|------8---10-------------------------|
D|-------------|-10----------------------------------|
A|-------------|-------------------------------------|
E|-------------|-------------------------------------|

|
E|-8---10------|-------------------------------------|
H|-------------|---------------9-8---9-8----9-8-9----|
G|-------------|------8---10-------------------------|
D|-------------|-10----------------------------------|
A|-------------|-------------------------------------|
E|-------------|-------------------------------------|


Riff 1:

|Guitar 1
E|---------------------------------|
H|---------------------------------|
G|---------------------------------|
D|---------------------------------|
A|-3-3-3-3-3-3-3-3-----------------|
E|-----------------4-4-6-6-4-4-3-3-|
|
|Guitar 2
E|---------------------------------|
H|---------------------------------|
G|---------5-5-4-4-5-5-7-7-5-5-4-4-|
D|-----5-5-------------------------|
A|-3-3-----------------------------|
E|---------------------------------|

"Vom Tag enfernt"
|Guitar 1
E|---------------------------------|---------------------------------|
H|---------------------------------|---------------------------------|
G|---------------------------------|---------------------------------|
D|-------------6-6-5-5-5-5---------|---------------------------------|
A|-3-3-3-3-3-3-------------6-6-6-6-|-3-3-3-3-3-3-3-3-----------------|
E|---------------------------------|-----------------4-4-6-6-4-4-3-3-|
|
|Guitar 2
E|---------------------------------|---------------------------------|
H|---------------------------------|---------------------------------|
G|-------------5-5-4-4-4-4---------|---------5-5-4-4-5-5-7-7-5-5-4-4-|
D|---------5-5-------------5-5-5-5-|-----5-5-------------------------|
A|-3-3-3-3-------------------------|-3-3-----------------------------|
E|---------------------------------|---------------------------------|

|Guitar 1
E|---------------------------------|-----------------------------------|
H|---------------------------------|-----------------------------------|
G|---------------------------------|-5-5-5-5-8-8-5-5-7-7-7-7-10-10-7-7-|
D|-------------6-6-5-5-5-5---------|-6-6-6-6-6-6-6-6-8-8-8-8-8--8--8-8-|
A|-3-3-3-3-3-3-------------6-6-6-6-|-----------------------------------|
E|---------------------------------|-----------------------------------|
|
|Guitar 2
E|---------------------------------|---------------------------------|
H|---------------------------------|---------------------------------|
G|-------------5-5-4-4-4-4---------|---------5-5-4-4-5-5-7-7-5-5-4-4-|
D|---------5-5-------------5-5-5-5-|-----5-5-------------------------|
A|-3-3-3-3-------------------------|-3-3-----------------------------|
E|---------------------------------|---------------------------------|

Play 4 Times


Riff 2:
"Entfesselt sei, was Licht gebunden"

|Guitar 1
E|-------------------------|-------------------------|
H|-------------------------|-------------------------|
G|-------------------5-5-5-|-3-3-3-------------------|
D|---------5-3-5-5-5-------|-------5-5-5-------------|
A|-3-3-3-3-----------------|-------------6-6-6-5-5-5-|
E|-------------------------|-------------------------|
|
|Guitar 2
E|-------------------------|-------------------------|
H|-------------------------|-------------------------|
G|-5-----------------------|-8----------3------------|
D|-5-----------------------|-8----------3------3-3-3-|
A|-3-----------------------|-6----------1------1-1-1-|
E|-------------------------|-------------------------|

"alles Leid sei nun verwun-"
|Guitar 1
E|-------------------------|-------------------------|
H|-------------------------|-------------------------|
G|-------------------5-5-5-|-7-7-7-------------------|
D|---------5-3-5-5-5-------|-------8-8-8-5-5-5-5-5-5-|
A|-3-3-3-3-----------------|-------------------------|
E|-------------------------|-------------------------|
|
|Guitar 2
E|-------------------------|-------------------------|
H|-------------------------|-------------------------|
G|-5-----------------------|-8-----------------------|
D|-5-----------------------|-8-----------5-----------|
A|-3-----------------------|-6-----\-----5-----------|
E|-------------------------|-------------3-----------|

Then Guitar 2 plays:

"-deeeen."
|Guitar 2
E|-------------------------|-------------------------|
H|-------------------------|-------------------------|
G|-------------------------|-------------------------|
D|-------------------5-5-5-|-------------------3-3-3-|
A|-3-3-3-3-3-3-3-3-3-------|-6-6-6-6-6-6-1-1-1-------|
E|-------------------------|-------------------------|

|
E|-------------------------|-------------------------|
H|-------------------------|-------------------------|
G|-------------------------|-------------------------|
D|-------------------5-5-5-|-3-3-3-------------------|
A|-3-3-3-3-3-3-3-3-3-------|-------6-6-6-------5-5-5-|
E|-------------------------|-------------3-3-3-------|

Riff 2 3x again

Riff 3:
Gitarre 2 plays nothing

|Guitar 1
E|-------------------------|-------------------------|
H|-------------------------|-------------------------|
G|-------------------------|-------------------------|
D|-------5-5---------------|-------5-5---------------|
A|-3-3-3-----6-3-3-3-3-3-3-|-3-3-3-----6-3-3-3-3-3-3-|
E|-------------------------|-------------------------|

|Guitar 1
E|-------------------------|-------------------------|
H|-------------------------|-------------------------|
G|-------------------------|-------------------------|
D|-6-6-6-5-5---------------|-------5-5---4-4-4-------|
A|-----------6-3-3-3-3-3-3-|-3-3-3-----6-------6-6-5-|
E|-------------------------|-------------------------|

|Guitar 1
E|-------------------------|-------------------------|
H|-------------------------|-------------------------|
G|-------------------------|-------------------------|
D|-------5-5---------------|-------5-5---------------|
A|-3-3-3-----6-3-3-3-3-3-3-|-3-3-3-----6-3-3-3-3-3-3-|
E|-------------------------|-------------------------|

|Guitar 1
E|---------------------------|-------------------------|
H|---------------------------|-------------------------|
G|---------------------------|-------------9-9-9-------|
D|-------9-9-9-9-9-9-7-------|-------7-7-7-------7-7-7-|
A|-7-7-7---------------10-87-|-8-8-8-------------------|
E|---------------------------|-------------------------|

Everything 3 times


Riff 4:

|Guitar 1
E|---------------------------------|---------------------------------|
H|---------------------------------|---------------------------------|
G|-------------------------5---5-5-|---------------------------------|
D|-4-4-4-4-4-4-4-4-4-4-4-4---4-----|-4-4-4-4-4-4-4-4-5-5-5-5-2-2-2-2-|
A|---------------------------------|---------------------------------|
E|---------------------------------|---------------------------------|
|
|Guitar 2
E|---------------------------------|---------------------------------|
H|---------------------------------|---------------------------------|
G|-------4-------------------------|-------4-------------------------|
D|---------4-4-2-2-----------------|---------4-4-2-2-----5-5-5-5-4-4-|
A|-2-2-2-----------3-3-3-3-3-3-3-3-|-2-2-2-----------3-3-------------|
E|---------------------------------|---------------------------------|

Play 6 times


Riff 5:

"In die Nacht fällt dein Schein"

|Guitar 1
E|---------------------------------|---------------------------------|---|
H|---------------------------------|---------------------------------|---|
G|---------------------------------|---------------------------------|---|
D|-2-2-2-2-5-5-2-2-3-2-----3-3-3-3-|-2-2-2-2-5-5-2-2-3-2-----5-5-5-5-|-5-|
A|---------------------5-3---------|---------------------5-3---------|---|
E|---------------------------------|---------------------------------|---|
|
|Guitar 2
E|---------------------------------|---------------------------------|---|
H|---------------------------------|---------------------------------|---|
G|---------------------------------|---------------------------------|---|
D|---------------------------------|-----------------7-7-7-7---------|---|
A|-0-0-0-0-0-0-0-0-2-0-2-2-2-2-3-2-|-3-3-3-3-3-3-5-3-5-5-5-5-3---5---|-7-|
E|---------------------------------|-------------------------1---3---|-5-|

Everything 4x


Clean Part:

|Guitar 1
E|---------------------------------|---------------------------------|
H|---------------------------------|---------------------------------|
G|---------------------------------|---------------------------------|
D|-2---2---2---2---5---5-----------|---------------------------------|
A|---2---2---2---2---2---2-3---3---|-5---3-2-3---3---3---3---2---3---|
E|---------------------------3---3-|-----------5---0---3---3---0---3-|

(damn Off-beats)

2 times, then comes Guitar 2.

"In die Nacht fällt dein Schein"
|Guitar 2
E|----------------------------------|---------------------------------|
H|----------------------------------|---------------------------------|
G|-4---4-----------4---4---7-5-4545-|-4---4-----------------------0-2-|
D|---5---5-7-5-4-2---5---5----------|---5---5-7-5-4-2-4-2-0-2-2-------|
A|----------------------------------|---------------------------------|
E|----------------------------------|---------------------------------|


Riff 6:

"In die Nacht schwebt dein Glanz"
|Guitar 1
E|---------------------------------|---------------------------------|
H|---------------------------------|---------------------------------|
G|---------------------------------|---------------------------------|
D|-2-2-2-2-2-2-2-2-2-2-2-2-2-2-2-2-|-6-6-6-6-6-6-6-6-----------------|
A|-2-2-2-2-2-2-2-2-2-2-2-2-2-2-2-2-|-2-2-2-2-2-2-2-2-3-3-3-3-3-3-3-3-|
E|---------------------------------|-----------------5-5-5-5-5-5-5-5-|
|
|Guitar 2
E|---------------------------------|---------------------------------|
H|---------------------------------|---------------------------------|
G|-4-4-0-0-4-4-0-0-2-2-0-0---------|-4-4-0-0-4-4-0-0-7-7-5-5-4-4-5-5-|
D|-------------------------4-4-2-2-|---------------------------------|
A|---------------------------------|---------------------------------|
E|---------------------------------|---------------------------------|

"In die Nach führt dein Weg"

|Guitar 1
E|---------------------------------|---------------------------------|---|
H|---------------------------------|---------------------------------|---|
G|---------------------------------|---------------------------------|---|
D|---------------------------------|---------------------------------|-2-|
A|-5-5-5-5-3-3-2-2-3-3-3-3-3-3-3-3-|-3-3-3-3-3-3-3-3-2-2-2-2-3-3-3-3-|-2-|
E|-----------------3-3-3-3-0-0-0-0-|-3-3-3-3-3-3-3-3-0-0-0-0-3-3-3-3-|-0-|
|
|Guitar 2
E|---------------------------------|---------------------------------|---|
H|---------------------------------|---------------------------------|---|
G|-4-4-0-0-4-4-0-0-2-2-0-0---------|-------------------------0-0-2-2-|-4-|
D|-------------------------4-4-2-2-|-4-4-2-2-0-0-2-2-2-2-2-2---------|---|
A|---------------------------------|---------------------------------|---|
E|---------------------------------|---------------------------------|---|

Ich bin nich'ich

21. října 2010 v 18:59 | ♥♥♥ThOMÍÍÍ♥♥♥
C                                        Em                                       C
Meine augen schaun mich müde an und finden keinen trost
G Gsus
Ich kann mich nich' mehr mit anseh'n - Bin ichlos
Bess D Am G Gsus
Alles was hier mal war - Kann ich nich' mehr in mir finden
Bess D
Alles weg - Wie im wahn
G Gsus
Seh ich mich immer mehr verschwinden


E C D Dsus
Ich bin nich' ich wenn du nich' bei mir bist - Bin ich allein
E C D Dsus
Und das was jetzt noch von mir übrig ist - Will ich nich' sein
E C
Draußen hängt der himmel schief
D Dsus
Und an der wand dein abschiedsbrief
E C D Dsus
Ich bin nich' ich wenn du nich' bei mir bist - Bin ich allein


C Em
Ich weiß nich' mehr, wer ich bin -
C
Und was noch wichtig ist
G Gsus
Das ist alles irgendwo, wo du bist
Bess D
Ohne dich durch die nacht -
Am G Gsus
Ich kann nichts mehr in mir finden
Bess D
Was hast du mit mir gemacht
Am G Gsus
Ich seh mich immer mehr verschwinden


E C D Dsus
Ich bin nich' ich wenn du nich' bei mir bist - Bin ich allein
E C D Dsus
Und das was jetzt noch von mir übrig ist - Will ich nich' sein
E C
Draußen hängt der himmel schief
D Dsus
Und an der wand dein abschiedsbrief
E C D Dsus
Ich bin nich' ich wenn du nich' bei mir bist - Will ich nicht mehr sein

E - C - Bess


E
Ich lös mich langsam auf
E
Halt mich nich' mehr aus
E C Bess E
Ich krieg dich einfach nich' mehr aus mir raus
E
Egal wo du bist - Komm und rette mich
E
Ich bin nich' ich wenn du nicht

E - C

D Dsus
Bei mir bist - Bin ich allein
E C D Dsus
Und das was jetzt noch von mir übrig ist - Will ich nich' sein
E C
Draußen hängt der himmel schief
D Dsus
Und an der wand dein abschiedsbrief
E C D Dsus
Ich bin nich' ich wenn du nich' bei mir bist - Will ich nicht mehr sein

E C
(Ich lös mich langsam auf
D
Halt mich nich' mehr aus

Ich krieg dich einfach...)

Dsus
Will ich nicht mehr sein

E C D
(Egal wo du bist - Komm und rette mich

Ich bin nich'..)

Humanoid

21. října 2010 v 18:57 | ♥♥♥ThOMÍÍÍ♥♥♥
Intro - Guitar 1 - every thing for this guitar is PALM MUTED
C#|-------------------------------------------|
G#|-------------------------------------------|
E |-------------------------------------------|
B |-------------------------------------------|
F#|-------------------------------------------|
B |-3-5555-3-5555-3-5555-0-1111-0-1111-0-1111-|

Intro - Guitar 2 - PALM MUTE areas are marked with *s
C#|-------------------------------------|
G#|-------------------------------------|
E |-------------------------------------|
B |-3-5555-3-55555555-0-1111-0-11111111-|
F#|-3-5555-3-55555555-0-1111-0-11111111-|
B |-3-5555-3-55555555-0-1111-0-11111111-|
* **** * * **** *


Verse 1 - Guitar 1 - every thing for this guitar is PALM MUTED
C#|-------------------------------------------|
G#|-------------------------------------------|
E |-------------------------------------------|
B |-------------------------------------------| Repeat 3 more times
F#|-------------------------------------------|
B |-3-5555-3-5555-3-5555-0-1111-0-1111-0-1111-|

Verse 1 - Guitar 2 - PALM MUTE areas are marked with *s
C#|-------------------------------------|
G#|-------------------------------------|
E |-------------------------------------|
B |-3-5555-3-55555555-0-1111-0-11111111-| Repeat 3 more times
F#|-3-5555-3-55555555-0-1111-0-11111111-|
B |-3-5555-3-55555555-0-1111-0-11111111-|
* **** * * **** *


Chorus - Guitar 1 - no palm muting
C#|-------------------------------------------|
G#|-------------------------------------------|
E |-------------------------------------------|
B |-------------------------------------------| Repeat 1 more time
F#|-------------------------------------------|
B |-3-5555-3-5555-3-5555-0-1111-0-1111-0-1111-|

Chorus - Guitar 2 - No palm muting
C#|------------------------------------|
G#|------------------------------------|
E |------------------------------------|
B |-5555555555555555-11111111111111111-| Repeat 1 more time
F#|-5555555555555555-11111111111111111-|
B |-5555555555555555-11111111111111111-|


Verse 2 (part 1) - One guitar only, with a bass guitar background
C#|----------------|
G#|----------------|
E |----------------|
B |-55--11--55--11-|
F#|-55--11--55--11-|
B |-55--11--55--11-|


Verse 2 (part 2) - Guitar 1
C#|----------------|
G#|----------------|
E |----------------|
B |-55--11--55--11-| Repeat once more
F#|-55--11--55--11-|
B |-55--11--55--11-|

Verse 2 (part 2) - Guitar 2
C#|-15~-----15~-----|
G#|-----18~-----18~-|
E |-----------------|
B |-----------------| Repeat two more times
F#|-----------------|
B |-----------------|


Chorus - Guitar 1 - no palm muting
C#|-------------------------------------------|
G#|-------------------------------------------|
E |-------------------------------------------|
B |-------------------------------------------| Repeat 3 more times
F#|-------------------------------------------|
B |-3-5555-3-5555-3-5555-0-1111-0-1111-0-1111-|

Chorus - Guitar 2 - No palm muting
C#|------------------------------------|
G#|------------------------------------|
E |------------------------------------|
B |-5555555555555555-11111111111111111-| Repeat 3 more times
F#|-5555555555555555-11111111111111111-|
B |-5555555555555555-11111111111111111-|


Post Chorus - both guitars
C#|-------------------------------------|
G#|-------------------------------------|
E |-------------------------------------|
B |-33333333-11111111-33333333-11111111-|
F#|-33333333-11111111-33333333-11111111-|
B |-33333333-11111111-33333333-11111111-|


Bridge First time - Both guitars
C#|-------------------------------------------------------------------------|
G#|-------------------------------------------------------------------------|
E |-3333333333333333-7777777777777777-8888888888888888888888888888/10101010-|
B |-3333333333333333-7777777777777777-8888888888888888888888888888/x-x-x-x--|
F#|-1111111111111111-5555555555555555-6666666666666666666666666666/8-8-8-8--|
B |-------------------------------------------------------------------------|


Post Bridge - Guitar 1
C#|---------------------------------------------------------------|
G#|---------------------------------------------------------------|
E |---------------------------------------------------------------|
B |-55--11--55--11--55--11--55-0-1111-0-1111-0-1111-0-1111-0-1111-|
F#|-55--11--55--11--55--11--55-0-1111-0-1111-0-1111-0-1111-0-1111-|
B |-55--11--55--11--55--11--55-0-1111-0-1111-0-1111-0-1111-0-1111-|

Post Bridge - Guitar 2
C#|-15~-----15~-----|
G#|-----18~-----18~-|
E |-----------------|
B |-----------------| Repeat 7 more times
F#|-----------------|
B |-----------------|


Chorus - Guitar 1 - no palm muting
C#|-------------------------------------------|
G#|-------------------------------------------|
E |-------------------------------------------|
B |-------------------------------------------| Repeat 3 more times
F#|-------------------------------------------|
B |-3-5555-3-5555-3-5555-0-1111-0-1111-0-1111-|

Chorus - Guitar 2 - No palm muting
C#|------------------------------------|
G#|------------------------------------|
E |------------------------------------|
B |-5555555555555555-11111111111111111-| Repeat 3 more times
F#|-5555555555555555-11111111111111111-|
B |-5555555555555555-11111111111111111-|


Post Chorus - both guitars
C#|-------------------------------------|
G#|-------------------------------------|
E |-------------------------------------|
B |-33333333-11111111-33333333-11111111-| Repeat once more
F#|-33333333-11111111-33333333-11111111-|
B |-33333333-11111111-33333333-11111111-|


(Post) Post Chorus - Note leading into second Bridge
C#|------------------|
G#|------------------|
E |-3333333333333333-|
B |-3333333333333333-|
F#|-1111111111111111-|
B |------------------|


Bridge Second Time - Both guitars
C#|-------------------------------------------------------------------------|
G#|-------------------------------------------------------------------------|
E |-3333333333333333-7777777777777777-8888888888888888888888888888/10101010-|
B |-3333333333333333-7777777777777777-8888888888888888888888888888/x-x-x-x--|
F#|-1111111111111111-5555555555555555-6666666666666666666666666666/8-8-8-8--|
B |-------------------------------------------------------------------------|
Repeat this whole thing one more time


Solo - Guitar 1
C#|---------------------------------------------------------------------|
G#|---------------------------------------------------------------------|
E |---------------------------------------------------------------------|
B |-/17\8/15\8-12-12-/17\8/15\8-12-12-/17\8/15\8-12-12-/17\8/15\8-12-12-|
F#|---------------------------------------------------------------------|
B |---------------------------------------------------------------------|

Solo - Guitar 2
C#|----------------|
G#|----------------|
E |----------------|
B |-55--11--55--11-|
F#|-55--11--55--11-|
B |-55--11--55--11-|


Outro - Guitar 1
C#|-------------------------------------------|
G#|-------------------------------------------|
E |-------------------------------------------|
B |-------------------------------------------| Repeat once and stop on the first 1
F#|-------------------------------------------|
B |-3-5555-3-5555-3-5555-0-1111-0-1111-0-1111-|

Outro - Guitar 2
C#|----------------|
G#|----------------|
E |----------------|
B |-55--11--55--11-|
F#|-55--11--55--11-|
B |-55--11--55--11-|

Outro - Guitar 3
C#|-15~-----15~-----|
G#|-----18~-----18~-|
E |-----------------|
B |-----------------| repeat 2 more times
F#|-----------------|
B |-----------------|


Human connect to human

21. října 2010 v 18:56 | ♥♥♥ThOMÍÍÍ♥♥♥
Intro - Guitar 1
e|--------------------------------------|
B|--------------------------------------|
G|---11---9~---9---7~---4---2~--4-------|
D|-9----9----7---7----2---2---5---5/7~\-|
A|--------------------------------------|
E|--------------------------------------|

Guitar 2
e|-----------------------------|
B|-----------------------------|
G|-----------------------------|
D|-xxx22-xxx77-xxx1010-xxx1212-|
A|-xxx22-xxx77-xxx1010-xxx1212-|
E|-xxx22-xxx77-xxx1010-xxx1212-|

Verse - Guitar 1
e|--------------------------------------|
B|--------------------------------------|
G|---11---9~---9---7~---4---2~--4-------|
D|-9----9----7---7----2---2---5---5/7~\-|
A|--------------------------------------|
E|--------------------------------------|

Guitar 2 comes in after the verse is played once

e|-----------------------------|
B|-----------------------------|
G|-----------------------------|
D|-xxx22-xxx77-xxx1010-xxx1212-|
A|-xxx22-xxx77-xxx1010-xxx1212-|
E|-xxx22-xxx77-xxx1010-xxx1212-|

Pre Chorus - Guitar 1
e|-------------------|
B|-------------------|
G|---11---9~--9---7~-|
D|-9----9---7---7----|
A|-------------------|
E|-------------------|
After the 9 on the G the guitar volume goes down

Chorus - Guitar 1
e|-----------------------------------------------------------------------|
B|-----------------------------------------------------------------------|
G|-9999999999999999-22222222-5555555-9999999999999999-22222222-5555-7777-|
D|-9999999999999999-22222222-5555555-9999999999999999-22222222-5555-7777-|
A|-7777777777777777-00000000-3333333-7777777777777777-00000000-3333-5555-|
E|-----------------------------------------------------------------------|
Repeat this until the chorus ends

Guitar 2
e|-----------------------------------------------------------------------|
B|-----------------------------------------------------------------------|
G|---------------------------55555555--------------------------5555-7777-|
D|-2222222222222222-77777777-55555555-222222222222222-77777777-5555-7777-|
A|-2222222222222222-77777777-33333333-222222222222222-77777777-3333-5555-|
E|-2222222222222222-77777777----------222222222222222-77777777-----------|
Repeat this until the chorus ends

Post Chorus - Guitar 1
e|--------------------------|
B|--------------------------|
G|-99999999999999-5555-7777-|
D|-99999999999999-5555-7777-|
A|-77777777777777-3333-5555-|
E|--------------------------|

Guitar 2
e|-------------------------------------------------------------|
B|-------------------------------------------------------------|
G|-------------------------------------------------5555-7777-9/|
D|-------------------------------------------------5555-7777-9/|
A|-------------------------------------------------3333-5555-7/|
E|-2-2-5~5-2-2-5~5-2-2-5~5-2-2-5~5-2-2-5~5-2-2-5~5-------------|


Verse - Guitar 1
e|--------------------------------------|
B|--------------------------------------|
G|---11---9~---9---7~---4---2~--4-------|
D|-9----9----7---7----2---2---5---5/7~\-|
A|--------------------------------------|
E|--------------------------------------|

Guitar 2 comes in after the verse is played once

e|-----------------------------|
B|-----------------------------|
G|-----------------------------|
D|-xxx22-xxx77-xxx1010-xxx1212-|
A|-xxx22-xxx77-xxx1010-xxx1212-|
E|-xxx22-xxx77-xxx1010-xxx1212-|


Pre Chorus - Guitar 1
e|-------------------|
B|-------------------|
G|---11---9~--9---7~-|
D|-9----9---7---7----|
A|-------------------|
E|-------------------|


Chorus - Guitar 1
e|-----------------------------------------------------------------------|
B|-----------------------------------------------------------------------|
G|-9999999999999999-22222222-5555555-9999999999999999-22222222-5555-7777-|
D|-9999999999999999-22222222-5555555-9999999999999999-22222222-5555-7777-|
A|-7777777777777777-00000000-3333333-7777777777777777-00000000-3333-5555-|
E|-----------------------------------------------------------------------|
Repeat this until the chorus ends

Guitar 2
e|-----------------------------------------------------------------------|
B|-----------------------------------------------------------------------|
G|---------------------------55555555--------------------------5555-7777-|
D|-2222222222222222-77777777-55555555-222222222222222-77777777-5555-7777-|
A|-2222222222222222-77777777-33333333-222222222222222-77777777-3333-5555-|
E|-2222222222222222-77777777----------222222222222222-77777777-----------|
Repeat this until the chorus ends


Post Chorus - Guitar 1
e|--------------------------|
B|--------------------------|
G|-99999999999999-5555-7777-|
D|-99999999999999-5555-7777-|
A|-77777777777777-3333-5555-|
E|--------------------------|

Guitar 2
e|-------------------------------------------------------------|
B|-------------------------------------------------------------|
G|-------------------------------------------------5555-7777-9/|
D|-------------------------------------------------5555-7777-9/|
A|-------------------------------------------------3333-5555-7/|
E|-2-2-5~5-2-2-5~5-2-2-5~5-2-2-5~5-2-2-5~5-2-2-5~5-------------|

Repeat this one more time


Break with no guitar


Bridge
e|---------------------------------------------------------|
B|---------------------------------------------------------|
G|---------------------------------------------------------|
D|----22-2/88---8\-22-2/88---8\-22-2/88--8\-22-2/88-10-10~-|
A|----22-2/88---8\-22-2/88---8\-22-2/88--8\-22-2/88-10-10~-|
E|-8\-22-2/88---8\-22-2/88---8\-22-2/88--8\-22-2/88-10-10~-|


Chorus - Guitar 1
e|-----------------------------------------------------------------------|
B|-----------------------------------------------------------------------|
G|-9999999999999999-22222222-5555555-9999999999999999-22222222-5555-7777-|
D|-9999999999999999-22222222-5555555-9999999999999999-22222222-5555-7777-|
A|-7777777777777777-00000000-3333333-7777777777777777-00000000-3333-5555-|
E|-----------------------------------------------------------------------|
Repeat this until the chorus ends

Guitar 2
e|-----------------------------------------------------------------------|
B|-----------------------------------------------------------------------|
G|---------------------------55555555--------------------------5555-7777-|
D|-2222222222222222-77777777-55555555-222222222222222-77777777-5555-7777-|
A|-2222222222222222-77777777-33333333-222222222222222-77777777-3333-5555-|
E|-2222222222222222-77777777----------222222222222222-77777777-----------|
Repeat this until the chorus ends


Outro - Guitar 1
e|--------------------------|
B|--------------------------|
G|-99999999999999-5555-7777-|
D|-99999999999999-5555-7777-|
A|-77777777777777-3333-5555-|
E|--------------------------|
Repeat this until the song ends

Guitar 2
e|-----------------------------------------------------------|
B|-----------------------------------------------------------|
G|-------------------------------------------------5555-7777-|
D|-------------------------------------------------5555-7777-|
A|-------------------------------------------------3333-5555-|
E|-2-2-5~5-2-2-5~5-2-2-5~5-2-2-5~5-2-2-5~5-2-2-5~5-----------|
Repeat this until the song ends

END OF SONG

HOPE YOU ENJOYED MY TAB!

Just so everyone knows this repeats through out the whole song in many places, Throw it
where ever you would like to!
e|-------------------------------------------------|
B|-------------------------------------------------|
G|-------------------------------------------------|
D|-------------------------------------------------|
A|-------------------------------------------------|
E|-2-2-5~5-2-2-5~5-2-2-5~5-2-2-5~5-2-2-5~5-2-2-5~5-|

Hilf mir fliegen

21. října 2010 v 18:55 | ♥♥♥ThOMÍÍÍ♥♥♥
Esus4 E Esus4         Asus2
Ich bin hier irgendwo gelandet
Esus4 E Esus4 Asus2
Kann nicht mehr sagen, wer ich bin
C#m Bsus2
Hab die Erinnerung verloren
Esus4 E Esus4 Asus2
Die Bilder geben keinen Sin
F#m Asus2
Bring mich zurück, bring mir nach Haus
F#m A
Ich schaff's nicht allein hier raus

Asus2 E Bsus2 Asus2
Komm und hilf mir flie-gen
Asus2 E Bsus2 Asus2
Leih mir deine Flü-gel
C#m Asus2
Ich tausch sie gegen die Welt
Asus2 G#m
Gegen alles, was mich hält
G#m A F#m Asus2
Ich tausch die heute Na -a -acht
F#m Esus4 E Esus4 Asus2
Gegen alles, was ich hab

Esus4 E Esus4 Asus2
Erzähl mir alle Lügen
Esus4 E Esus4 Asus2
Mach es so, das ich es glaub
C#m Bsus2
Sonst krieg ich keine Luft mehr
Esus4 E Esus4 Asus2
Und diese Stille macht mich taub
F#m Asus2
Nur graue Maueren und kein Licht
F#m A
Alles hier ist ohne mich

A E Bsus2 Asus2
Komm und hilf mir flie -ge -en
Asus2 E Bsus2 Asus2
Leih mir diene Flü-ge- el
C#m Asus2
Ich tausch sie gegen die Welt
G#m Asus2
Gegen alles, was mich hält
G#m A F#m Asus2
Ich tausch sie heute Na -a -acht

A F#m
Ich find mich hier nicht wieder
A
Erkann mich selbst nicht mehr
F#m
Komm und zieh mich raus hier
A
Ich gib alles dafür her
F#m
Ich hab Fernweh
B
Ich will zurück
F#m
Entfern mich immer weiter
B
Mit Jedem Augenblick

Esus4 E Esus4 Asus2
Ich bin hier irgendwo gelandet

A E Bsus2 Asus2
Komm und hilf mir flie -ge -en
Asus2 E Bsus2 Asus2
Leih mir diene Flü-ge- el
C#m Asus2
Ich tausch sie gegen die Welt
G#m Asus2
Gegen alles, was mich hält
G#m A
Ich tausch sie heute Nacht
(2x)

Hey you

21. října 2010 v 18:53 | ♥♥♥ThOMÍÍÍ♥♥♥
(No Chords)
Come on, you can look at me

I don't need to fit in

Stand up if you give a damn

It's the livin' season

You and what your looking for, have you got a reason

You can if you wanna see, a touch amount of human

The same blood

The same cells

The same god

The same hell

The same life

The same love

Somebody, anybody, everybody stand up


C Cb
Hey, you
Em A
we can turn it up
C Cb
Hey, you
Em A
we can turn it up


(No Chords)
You know, noones listening

They don't wanna hear it

Saying, what you wanna say

people start to fear it

The same fist

The same shout

The same pain

The same doubt

The same joy

The same love

Somebody, anybody, everybody stand up



C Cb
Hey, you
Em A
we can turn it up
C Cb
Hey, you
Em A
we can turn it up


C D
Silence has been killing you
Em A
Screaming deep inside of you
C D
Just turn it up
Em
Just turn it up


Em F Gb G
All that you've got
G Gb F Em
Just let it out
Em F Gb G
Ready or not
G Gb F Em
Just turn it up, louder
Em F Gb G
Don't let it stop, louder
G Gb F Em
Just turn it up, louder
Em F Gb G
Whats making you hot, louder
G Gb F Em
Just turn it up


(No Chords)
Come on, you can look at me

I don't need to fit in

You can if you wanna see, just a touch of only human

The same blood

The same cells

The same god

The same hell

The same life

The same love

Sombody, anybody, everybody stand up



Hey, you
Em A
we can turn it up
C Cb
Hey, you
Em A
we can turn it up



Silence has been killing you

Screaming deep inside of you

Just turn it up

Just turn it up



C D
Silence has been killing you
Em A
Screaming deep inside of you
C D
Just turn it up
Em
Just turn it up


Em F Gb G
All that you've got
G Gb F Em
Just let it out
Em F Gb G
Ready or not
G Gb F Em
Just turn it up

Heilig

21. října 2010 v 18:52 | ♥♥♥ThOMÍÍÍ♥♥♥
[Verse]:
Am C G Em
Ich halt mich wach - für dich
Am C G Em
Wir schaffens nicht beide - Du weisst es nicht
Am C
Ich geb mich jetzt für Dich auf
G Em
Mein letzter Wille hilft Dir raus
Am C G
bevor das Meer unter mir - zerbricht
C
Ich glaub an Dich


[Chorus]:
Am C G Em
Du wirst für mich - immer heilig sein
Am C G Em
Ich sterb - für unsere Unsterblichkeit
Am C G Em
Meine Hand - von Anfang an über Dir - Ich glaub an Dich
Am C G Em
Du wirst für mich - immer heilig sein

Geh

21. října 2010 v 18:51 | ♥♥♥ThOMÍÍÍ♥♥♥
Intro: G#m / E / F# / D#


G#m E
Tage geh´n vorbei
F# D#m
Ohne da zu sein
G#m E
Alles war so gut
F# D#m
Alles ich und du
G#m E
Geh
D#m F#
Geh
G#m E
Wir ham nichts falsch gemacht
F# D#m
Die ganze Zeit gedacht
G#m E
So könnt´ es weiter geh´n
F# D#m
Alles andere werden wir sehen
G#m E
Geh
D#m F#
Geh

H F#
Geh,
C#m G#m
lass uns hinter dir und mir
H F#
Versuch nicht zu verstehen
E G#m F#
Warum es nicht mehr geht
H F#
Geh,
C#m G#m
versuch uns beide zu verlier´n
H F#
Für uns wird´s erst weitergehen
G#m
Wenn wir uns nicht mehr sehen
H F#m
Geh
G#m
Geh!

G#m E
Tu´s für dich und mich
F# D#m
Ich könnt´ es nicht
G#m E
Ich hätte nicht den Mut
F# D#m
Alles ich und du



G#m E
Geh
D#m F#
Geh
G#m E
Tage geh´n vorbei
F#m D#m
Ohne da zu sein
G#m E
Deine Spuren führ´n zu mir
F# D#m
Soweit weg von dir
G#m E
Geh
D#m F#
Geh

H F#
Geh,
C#m G#m
lass uns hinter dir und mir
H F#
Versuch nicht zu verstehen
E G#m F#
Warum es nicht mehr geht
H F#
Geh,
C#m G#m
versuch uns beide zu verlier´n
H F#
Für uns wird´s erst weitergehen
G#m
Wenn wir uns nicht mehr sehen
H F#m
Geh
G#m
Geh!


C#m F#
Ich brech´ das Licht
D#m G#m
Die Schatten fall´n auf mich
C#m F#
Ich seh uns nicht
D#m G# C#
Alle Schatten fall´n auf mich
C#m F#
Auf mich
D#m G#m E F# D#m
Schatten fall´n auf mich

G#m E
Tage geh´n vorbei
F# D#m
Ohne da zu sein
F# D#7
Das ist alles was uns bleibt







H F#
Wenn du gehst
C# G#m
Wenn du jetz gehst
H F#
Versuch nicht zu verstehen
E G#m F#
Warum es nicht mehr geht
H F#
Geh,
C#m G#m
versuch uns beide zu verlier´n
H F#
Für uns wird´s erst weitergehen
G#m
Wenn wir uns nicht mehr sehen
H F#
Geh
G#m
Geh!

G#m
Tage geh´n vorbei
G#m
Ohne da zu sein
D#maj7
Bleib


At the Parts when Bill , the singer, sings "Geh...Geh" a 2. guitar plays

d#|--------5----0----------3--------|
A#|----------------1----------0-----|
F#|------------------------------0--|
C#|---------------------------------|
G#|---------------------------------|
D#|---------------------------------|

Gegen meine willen

21. října 2010 v 18:50 | ♥♥♥ThOMÍÍÍ♥♥♥
Intro:
E|-----------------------------------|
B|-----------------------------------|
G|7/9--9--9--9--9-9-9\7--7--7--7--7-7|
D|7/9--9--9--9--9-9-9\7--7--7--7--7-7|
A|5/7--7--7--7--7-7-7\5--5--5--5--5-5|
E|--------------------------7--------|x2

1 zwrotka:
1 Vers:
Wie soll es mir schon geh'n...
E|-----------------------------------|
B|-----------------------------------|
G|7/9--9--9--9--9-9-9\7--7--7--7--7-7|
D|7/9--9--9--9--9-9-9\7--7--7--7--7-7|
A|5/7--7--7--7--7-7-7\5--5--5--5--5-5|
E|--------------------------7--------|x3

sagt es mir jetzt in mein Gesicht... sagt wof? alles hier zerbricht...
E|-----------------------------------------------------------------
B|-----------------------------------------------------------------
G|4--4--4/6--6--6-6/9--9--9\8--8--8-8\4--4--4/6--6--6-6/9--9--9/11-
D|4--4--4/6--6--6-6/9--9--9\8--8--8-8\4--4--4/6--6--6-6/9--9--9/11-
A|2--2--2/4--4--4-4/7--7--7\6--6--6-6\2--2--2/4--4--4-4/7--7--9/9--
E|-----------------------------------------------------------------

es macht mich fertig...
E|------------|
B|------------|
G|2--2--2--2-2|
D|2--2--2--2-2|
A|0--0--0--0-0|
E|------------|

ref.:
chorus:
C e
es ist gegen meinen Willen
C e
es ist gegen jeden Sinn
C e
warum m?hr euch jetzt trennen
D A
eure Namen umbenennen
C e
unser Ende ist schon hier
C e
und ihr sagt es nicht vor mir
C e
ich hasse euch daf? D A
es ist gegen meinen Willen
C D
dagegen - bin dagegen

Reszta to już pryszcz :D
The rest is a piece of cake :D

Frei im freien fall

21. října 2010 v 18:48 | ♥♥♥ThOMÍÍÍ♥♥♥
INTRO:

|---------|
|---------|
|----6----|
|-4--6--6-|
|-4--4--6-|
|-2-----4-| x2

VERSE:

[Meine Wohnung..]

|------------|---------------|
|------------|---------------|
|-------8--6-|-------8--6--4-|
|-6--4--8--6-|-6--4--8--6--4-|
|-6--4--6--4-|-6--4--6--4--2-|
|-4--2-------|-4--2----------|

[Zurück will ich nicht..]

|------------|------------|---|
|------------|------------|---|
|-------8--6-|-------8--6-|-6-|
|-6--4--8--6-|-6--4--8--6-|-6-|
|-6--4--6--4-|-6--4--6--4-|-4-|
|-4--2-------|-4--2-------|---|

CHORUS:

[Frei im freien Fall..]

|---------|
|---------|
|----6----|
|-4--6--6-|
|-4--4--6-|
|-2-----4-| x4

VERSE:

[1.000 Augen..]

|------------|------------|---|
|------------|------------|---|
|-------8--6-|-------8--6-|-6-|
|-6--4--8--6-|-6--4--8--6-|-6-|
|-6--4--6--4-|-6--4--6--4-|-4-|
|-4--2-------|-4--2-------|---|

CHORUS:

[Frei im freien Fall..]

|---------|
|---------|
|----6----|
|-4--6--6-|
|-4--4--6-|
|-2-----4-| x4

[Ich will nur frei sein..]

|------|
|------|
|----4-|
|-6--4-|
|-6--2-|
|-4----| x4

INTERLUDE:

[Lass mich fallen!]

|-------|-------|---------|
|-------|-------|---------|
|-------|-------|---------|
|-9-8-6-|-8-6-4-|-6-4-2-1-|
|-9-8-6-|-8-6-4-|-6-4-2-1-|
|-7-6-4-|-6-4-2-|-4-2-----| x4

[Frei im freien Fall..]

|---------|
|---------|
|----6----|
|-4--6--6-|
|-4--4--6-|
|-2-----4-| x4

CHORUS:

|---------|
|---------|
|----6----|
|-4--6--6-|
|-4--4--6-|
|-2-----4-| x8

END:

|-------|-------|---------|
|-------|-------|---------|
|-------|-------|---------|
|-9-8-6-|-8-6-4-|-6-4-2-1-|
|-9-8-6-|-8-6-4-|-6-4-2-1-|
|-7-6-4-|-6-4-2-|-4-2-----| x4


Forgotten children

21. října 2010 v 18:46 | ♥♥♥ThOMÍÍÍ♥♥♥
Intro:
|------0-----0----------0-----0----------0-----0---------0-----0---|
|------------------------------------------------------------------|
|------------------------------------------------------------------|
|------------------------------------------------------------------| x1
|------------------------------------------------------------------|
|---5----5-----------5----5-----------1----1----------1----0-------|

Verse:
|------0-----0----------0-----0----------0-----0---------0-----0---|
|------------------------------------------------------------------|
|------------------------------------------------------------------|
|------------------------------------------------------------------| x4
|------------------------------------------------------------------|
|---5----5-----------5----5-----------1----1----------1----0-------|
"Just a normal day..."

|------0-----0----------0-----0----------0-----0---------------3---|
|--------------------------------------------------------3---------|
|------------------------------------------------------------------|
|------------------------------------------------------------------| x1
|------------------------------------------------------------------|
|---5----5-----------5----5-----------1----1----------3----3-------|
"To many of them out there..."
Chorus:
|------------------------------------------------------------------|
|------------------------------------------------------------------|
|--------2-------------2--------------2---------------5----5-------|
|---0------3-------------3--------------3-----------3--------------| x6
|------------------1-----------------------------3-----------------|
|---------------------------------1--------------------------------|
"Lost and so alone..."

Verse:
|------0-----0----------0-----0----------0-----0---------0-----0---|
|------------------------------------------------------------------|
|------------------------------------------------------------------|
|------------------------------------------------------------------| x1
|------------------------------------------------------------------|
|---5----5-----------5----5-----------1----1----------1----0-------|
(silence)

|------0-----0----------0-----0----------0-----0---------0-----0---|
|------------------------------------------------------------------|
|------------------------------------------------------------------|
|------------------------------------------------------------------| x2
|------------------------------------------------------------------|
|---5----5-----------5----5-----------1----1----------1----0-------|
"Eyes without lies..."

|------0-----0----------0-----0----------0-----0---------------3---|
|--------------------------------------------------------3---------|
|------------------------------------------------------------------|
|------------------------------------------------------------------| x1
|------------------------------------------------------------------|
|---5----5-----------5----5-----------1----1----------3----3-------|
"A life in disguise..."

Chorus:
|------------------------------------------------------------------|
|------------------------------------------------------------------|
|--------2-------------2--------------2---------------5----5-------|
|---0------3-------------3--------------3-----------3--------------| x6
|------------------1-----------------------------3-----------------|
|---------------------------------1--------------------------------|

Forever now

21. října 2010 v 18:45 | ♥♥♥ThOMÍÍÍ♥♥♥
Intro:
Em C Em C

Verse 1:
Em C Em
I look up
C Em
There are dark flames comin' down
C Em
My parachute
C Em
Can't bring me back to the ground
C Em
I lose my faith
C Em
When I watch the fadin' lights
C Em
Just your shadows touch
D
Makes me feel alive


Chorus:
C D
Hey!
G D
Everybody shout
C D
Hey!
G D
Celebrate it loud
Em C
Forever now
Em C
Forever now


Verse 2:
I walk the streets
They are hard, cold, sad and true
Don't lose your way
I am here with you

Chorus:
C D
Hey!
G D
Everybody shout
C D
Hey!
G D
Celebrate it loud


Bridge:
C
Forever today
D
Forever tonight
G
Reset your eyes
D
Erase your mind
C D
I will never let you down
G D
Join me forever now
Em C Em D
Forever now

(Let's run into the pourin' rain
To feel that we're alive again)

C D
Whisper me
G D
All your secrets
C D
Whisper me
G D
All my secrets
Whisper me
All your secrets
Whisper me
Celebrate it loud

Forever today
Forever tonight
Reset your eyes
Erase your mind
I will never let you down
Join me forever now
Em C Em C Em
Forever now

Let's run into the pourin' rain
To feel that we're alive again
Forever now!
Let's run into the pourin' rain
To feel that we're alive again


Durch den monsun

21. října 2010 v 18:44 | ♥♥♥ThOMÍÍÍ♥♥♥
E           C                 E
Das Fenster öffnet sich nicht mehr
C E
Hier drin ist es voll von dir und leer
C Am G
Und vor mir geht die letzte Kerze aus


E C E
Ich warte schon ne Ewigkeit
C E
Und endlich ist es jetzt so weit
C Asus4 A
Da draußen ziehn die schwarzen Wolken auf


C
Ich muss durch den Monsun
D
hinter die Welt
Em
ans Ende der Zeit
Bm
bis kein Regen mehr fällt
C
Gegen den Sturm
D
am Abgrund entlang
Bm Em
Und wenn ich nicht mehr kann denk ich daran
Cmaj7 D
Irgendwann laufen wir zusammen
E C (sus4)
durch den Monsun
E C
Dann wird alles gut


C E
Der halbe Mond versinkt vor mir
C E
War der eben noch bei dir
C Am G
Und hält er wirklich was er mir verspricht

C E
Ich weiß das ich dich finden kann
C E
Ich hör deinen Namen im Orkan
C Asus4 A
Und ich glaube denn mehr als glauben kann ich nicht


C
Ich muss durch den Monsun
D
hinter die Welt
Em
ans Ende der Zeit
Bm
bis kein Regen mehr fällt
C
Gegen den Sturm
D
am Abgrund entlang
Bm Em
Und wenn ich nicht mehr kann denk ich daran
C D
Irgendwann laufen wir zusammen
Em Bm
weil und einfach nichts mehr halten kann
C D
durch den Monsun


Esus4 E Csus4 C
Hey!
Esus4 E Csus4 C
Hey!!!

Esus4 E Csus4 C
Ich kämpfe mich durch die Mächte
Esus4 E Csus4 C
hinter dieser Tür
Esus4 E Csus4 C
werde sie besiegen und dann
Esus4 E Csus4 C
führen sie mich zu dir


Cmaj7


E Cmaj7
dann wird alles gut
E Cmaj7
wird alles gut
E Cmaj7
dann wird alles gut
E Cmaj7
wird alles gut

C
Ich muss durch den Monsun
D
hinter die Welt
Em
ans Ende der Zeit
Bm
bis kein Regen mehr fällt
C
Gegen den Sturm
D
am Abgrund entlang
Bm Em
Und wenn ich nicht mehr kann denk ich daran
C D
Irgendwann laufen wir zusammen
Em Bm
weil und einfach nichts mehr halten kann
C D
durch den Monsun

Down on you

21. října 2010 v 18:42 | ♥♥♥ThOMÍÍÍ♥♥♥
      Dm
Can I drive you home?
C F
Can I crash into your life?
Dm
Can you fix my soul?
C F
Can you break my heart tonight?

Bb C Dm
Some angels dont cry
F
And we are, and we are
Dm
Just the two of them
C F
And were falling through the sky

CHORUS
C
And tonight
F Bb
I get down on you, get down on you
Dm C
Blessed kisses waiting
F Bb
I get down on you, get down on you
Dm C
foreign wishes fading
Dm
Right into your rockstar dreams,
F
Its a point of view
Dm F
I get down, down, down to get up on you
Bb A Dsus4 Dm
I get down on you, get down on you

Can I fill you up with my emptiness tonight?
Can I hold your hand as we slip into the Light?
Cause angels fall down
And we are, and we are
Just two damaged souls
But its heaven where we lie

And tonight
F Bb
I get down on you, get down on you
Dm C
Blessed kisses waiting
F Bb
I get down on you, get down on you
Dm C
foreign wishes fading
Dm
Right into your rockstar dreams,
F
Its a point of view
Dm F
I get down, down, down to get up on you
Bb A
I get down on you, get down on you

We are, we are
Bb Dm
angels,angels dont cry (And we are, and we are)

Bb C Dm
Two souls collide (And we are, and we are)
Bb C Dm
Come in tonight

F Bb
I get down on you, get down on you
Dm C
Blessed kisses waiting
F Bb
I get down on you, get down on you
Dm C
foreign wishes fading
Dm
Right into your rockstar dreams,
F
Its a point of view
Dm F
I get down, down, down to get up on you
Bb A Dsus4 D
I get down on you, get down on you

Bb
Can I drive you home?
C Dm
Can I crash into your life?
Bb
Can you fix my soul?
C N.C.
Can you break my heart tonight?

Der letzte tag

21. října 2010 v 18:40 | ♥♥♥ThOMÍÍÍ♥♥♥
Intro
D#|------------------------------------|
A#|------------------------------------|
F#|------------------------------------|
C#|---4--4----5555555------------------| 2x
G#|--4--4-3-2-5555555------------------|
D#|-2--2------3333333------------------|

Verse
D#|------------------------------------|
A#|------------------------------------|
F#|------------------------------------|
C#|---4--4----5555555------------------| 4x
G#|--4--4-3-2-5555555------------------|
D#|-2--2------3333333------------------|

Bridge
D#|---------------------------------|
A#|---------------------------------|
F#|-4444-444-7-77-777-4444-77-7-777-|
C#|-4444-444-7-77-777-4444-77-7-777-|
G#|-2222-222-5-55-555-2222-55-5-555-|
D#|---------------------------------|

Chorus
D#|---------------------|
A#|---------------------|
F#|------7777-----------|
C#|-4444-7777-777-7-777-| x3
G#|-4444-5555-777-7-777-|
D#|-2222------555-4-444-|

D#|----------------------------------|
A#|----------------------------------|
F#|-44444444-777777/8-44444444-77777-|
C#|-44444444-777777/8-44444444-77777-|
G#|-22222222-555555/6-22222222-55555-|
D#|----------------------------------|

D#|------------------------------------|
A#|------------------------------------|
F#|------------------------------------|
C#|---4--4----5555555------------------| 2x
G#|--4--4-3-2-5555555------------------|
D#|-2--2------3333333------------------|

Verse
D#|------------------------------------|
A#|------------------------------------|
F#|------------------------------------|
C#|---4--4----5555555------------------| 4x
G#|--4--4-3-2-5555555------------------|
D#|-2--2------3333333------------------|

Bridge
D#|---------------------------------|
A#|---------------------------------|
F#|-4444-444-7-77-777-4444-77-7-777-|
C#|-4444-444-7-77-777-4444-77-7-777-|
G#|-2222-222-5-55-555-2222-55-5-555-|
D#|---------------------------------|

Chorus
D#|---------------------|
A#|---------------------|
F#|------7777-----------|
C#|-4444-7777-777-7-777-| x3
G#|-4444-5555-777-7-777-|
D#|-2222------555-4-444-|

D#|----------------------------------|
A#|----------------------------------|
F#|-44444444-777777/8-44444444-77777-|
C#|-44444444-777777/8-44444444-77777-|
G#|-22222222-555555/6-22222222-55555-|
D#|----------------------------------|

D#|---------------------|
A#|---------------------|
F#|------7-77-----------|
C#|-4-44-7-77-7-7-7-777-| x3
G#|-4-44-5-55-7-7-7-777-|
D#|-2-22------5-5-4-444-|

D#|-----------------------------------------------------------|
A#|-----------------------------------------------------------|
F#|-11-11-11/1212/14-14-141414-141414\11--11-11/121212\11~9~--|
C#|-11-11-11/1212/14-14-141414-141414\11--11-11/121212\11~9~--|
G#|-9 -9 -9 /1010/12-12-121212-121212\9 --9 -9 /101010\9 ~7~--|
D#|-----------------------------------------------------------|

Bridge
D#|---------------------------------|
A#|---------------------------------|
F#|-4444-444-7-77-777-4444-77-7-777-|
C#|-4444-444-7-77-777-4444-77-7-777-|
G#|-2222-222-5-55-555-2222-55-5-555-|
D#|---------------------------------|

Chorus
D#|---------------------|
A#|---------------------|
F#|------7777-----------|
C#|-4444-7777-777-7-777-| x3
G#|-4444-5555-777-7-777-|
D#|-2222------555-4-444-|

D#|----------------------------------|
A#|----------------------------------|
F#|-44444444-777777/8-44444444-77777-|
C#|-44444444-777777/8-44444444-77777-|
G#|-22222222-555555/6-22222222-55555-|
D#|----------------------------------|

D#|-------------------------------------------------------------|
A#|-------------------------------------------------------------|
F#|-11-11-11/1212/14-14-141414-141414\11--11-11/121212\11~9~999-|
C#|-11-11-11/1212/14-14-141414-141414\11--11-11/121212\11~9~999-|
G#|-9 -9 -9 /1010/12-12-121212-121212\9 --9 -9 /101010\9 ~7~777-|
D#|-------------------------------------------------------------|

D#|---------------------------------------------------------|
A#|---------------------------------------------------------|
F#|-11-11-11/1212/14-14-141414-141414\11--11-11/121212\11-9-|
C#|-11-11-11/1212/14-14-141414-141414\11--11-11/121212\11-9-|
G#|-9 -9 -9 /1010/12-12-121212-121212\9 --9 -9 /101010\9 -7-
D#|---------------------------------------------------------

D#|------------------------|
A#|------------------------|
F#|-44444444-77777777777-4-|
C#|-44444444-77777777777-4-|
G#|-22222222-55555555555-2-|
D#|------------------------|